Your Ad Here Your Ad Here
Results 1 to 10 of 10

Thread: Lamb of God - Sacrament TABS [2006], enjoy

  1. #1
    cpt_azad's Avatar Colonel
    Join Date
    Aug 2003
    Location
    Surrey, BC
    Posts
    6,741
    People have been asking me like crazy, not jsut this forum but like friends and stuff, so stfu and leave me alone! lol

    Most of the ones I"m about to post are complete, some not so complete (solo's etc.) but they'll be done soon enough.


    WALK WITH ME IN HELL
    TRACK: #1
    ALBUM: SACRAMENT
    ARTIST: LAMB OF GOD


    Code:
    Walk with me in Hell
    Sacrament - Lamb of God
    By: Tabreez Azad
    Tuning: DADGBe (alternate: BF#BEG#C#)
    view this in --> Font: Courier New, make sure word wrap is on
                                                                                      
    e|-------------------------------------------------------||    
    B|-------------------------------------------------------||     
    G|----14-13--------------14-13---------------14-13-------||        
    D|-12-------12-14-15--12-------12-14-15---12-------14----||    X3  
    A|-------------------------------------------------------||      
    D|-------------------------------------------------------||     
                                                                                     
    
    e|--------------------------------------------------------|
    B|--------------------------------------------------------|
    G|----14-13--------------14-13------------------12--------|
    D|-12-------12-14-15--12-------12-14-15------14----14-----|
    A|----------------------------------------15--------------|
    D|--------------------------------------------------------|
                                                                                 
                                                                                    
    e||-----------------------------------------------------------||  
    B||-----------------------------------------------------------||  
    G||------15-14----------------15-14----------------15-14------||   
    D||-------------12-14-15------------12-14-15-------------15---||    X3
    A||--13--------------------13-------------------13------------||  
    D||-----------------------------------------------------------|| 
                                                                              
    
    e|--------------------------------------------------------|
    B|--------------------------------------------------------|
    G|----15-14--------------15-14------------------12--------|
    D|----------12-14-15-----------12-14-15------14----14-----|
    A|-13-----------------13------------------15--------------|
    D|--------------------------------------------------------|
                                                                                 
    
    e||-------------------------------------------------------||
    B||-------------------------------------------------------||
    G||----14-13--------------14-13---------------14-13-------||
    D||-12-------12-14-15--12-------12-14-15---12-------14----||   X3
    A||-------------------------------------------------------||
    D||-------------------------------------------------------||
                                                                               
    
    e|-------------------------------------------------------|
    B|-------------------------------------------------------|
    G|-----14-13--------------14-13-----------------12-------|
    D|--12-------12-14-15--12-------12-14-15-----14----14----|
    A|----------------------------------------15-------------|
    D|-------------------------------------------------------|
    
    e||-------------------------------------------------------||
    B||-------------------------------------------------------||
    G||----15-14---------------15-14----------------15-14-----||
    D||----------12-14-15------------12-14-15-------------15--||    X3
    A||-13-----------------13--------------------13-----------||
    D||-------------------------------------------------------||
                                                      
    
                             
                                                      
    e|-----------------------------------------------------|
    B|-----------------------------------------------------|
    G|----15-14--------------15-14--------------------------|
    D|----------12-14-15-----------12-14-15----------------|
    A|-13-----------------13--------------------------------|
    D|--------------------------------------------8h10b-----|
                                                                
    
      
                   
                                                           ------------ 
                                                                      |
    e||-----------------------------------------------------||        |
    B||-----------------------------------------------------||        |
    G||-----------------------------------------------------||        |
    D||-----------------------------------------------------||    X3  |
    A||-----------------------------------------------------||        |
    D||-0-10-12---0-10-12---0-10-12-13-12-10---0-10-12-13---||        |
                                                                      |       X2
                                                                      |
    e|----------------------------------------------|                 |
    B|----------------------------------------------|                 |
    G|----------------------------------------------|                 |
    D|----------------------------------------------|                 |
    A|----------------------------------------------|                 |
    D|-0-12-10---0-10-8---0-8-7---0-7-5---0-5-3-1---|                 |
                                                                      | 
                                                           ------------          
    
    
    This one I'm not 100% sure on, but it sounds right:
    
    P.M.----------------| P.M--------|            
    e||-------------------------------------------------------------------------||
    B||-------------------------------------------------------------------------||
    G||-------------------------------------------------------------------------||
    D||-------------------------------------------------------------------------||   X2
    A||-------------------------------------------------------------------------||
    D||-0-0-0-0-0-000-0-0-1-0--000-0-0--0-12-10--0-10-8--0-8-7--0-7-5--0-5-3-1--||
                                                                                 
    
    P.M--------------------------------------|
    e|---------------------------------------------------------------------------|
    B|---------------------------------------------------------------------------|
    G|---------------------------------------------------------------------------|
    D|---------------------------------------------------------------------------|
    A|-----------------------------------------5-3-1-3-1-0-1---------------------|
    D|-6-6-6-6-6-6-6-6--7-6-7-6--6-6-6-6-6---6---------------7-5-7-5-3-5-3-1-----|
    
    
    P.M.------------------|    P.M.-----------|     P.M    P.M
    e|----------------------------------------------------------------------------|
    B|----------------------------------------------------------------------------|
    G|----------------------------------------------------------------------------|
    D|--------------------------------------------------5\4----5p7-8p7p5-7p5-4h5--|
    A|-----------------------1--------------------6\5-----------------------------|
    D|-0-0-0-0-0-0--0-0-0-0--1--0-0-0-0-0-0-0--0------0------0--------------------|
    
    
    
    P.M.----------------|    P.M.------------|    P.M     P.M
    e|--------------------------------------------------------------------------------|
    B|--------------------------------------------------------------------------------|
    G|--------------------------------------------------------------------------------|
    D|-------------------------------------------------5\4----5-7-8-7-5-7-5-4-5-------| 
    A|---------------------1--------------------6\5-----------------------------------|
    D|-0-0-0-0-0--0-0-0-0--1--0-0-0-0-0-0-0--0------0------0--------------------------|
    
    
    
    P.M.----------------|    P.M.------------|     P.M    P.M.
    e|-------------------------------------------------------------------------------|
    B|-------------------------------------------------------------------------------|
    G|------------------------------------------------------------------7-5-3-5------|
    D|-------------------------------------------------5\4----5-7-8-7-5--------------|
    A|---------------------1--------------------6\5----------------------------------|
    D|-0-0-0-0-0--0-0-0-0--1--0-0-0-0-0-0-0--0------0------0-------------------------|
    
    
    
    The myth of a meaning so lost and forgotten!
    
    1:23
    
    
    P.M.----------------------------------------|
    e|-------------------------------------------------------------------------------|
    B|-------------------------------------------------------------------------------|
    G|-------------------------------------------------------------------------------|
    D|-------------------------------------------------------------------------------|
    A|-------------------------------------------------------------------------------|
    D|-8-8-8-8-8-8--8-8-8-8--10-8-10-8--8-8-8-8-8--12-10-8-10-8-7-8-7-5-7-5-3-5-3-1-0|
    
    
      
    Play the intro until 1:42
    
    
    (intro)
    
    
    
    1:45
    
    P.M.-----|  P.M.----------|  P.M----|     P.M     P.M.
    e|---------------------------------------------------------------------------|
    B|---------------------------------------------------------------------------|
    G|---------------------------------------------------------------------------|
    D|---------------------------------------------5\4----5-7-8-7-5-7-5-4-5------| 
    A|---------1----------------1----------6\5-----------------------------------|
    D|-0-0-0-0-1-0-0-0--0-0-0-0-1-0-0-0-0-------0------0-------------------------|
    
    
    P.M.----|  P.M.----------|  P.M.---|    P.M.  P.M. 
    e|---------------------------------------------------------------------------|
    B|---------------------------------------------------------------------------|
    G|------------------------------------------------------------7-5-3-5--------|
    D|------------------------------------------5\4----5-7-8-7-5-----------------|
    A|--------1----------------1----------6\5------------------------------------|
    D|0-0-0-0-1-0-0-0--0-0-0-0-1-0-0-0-0------0-----0----------------------------|
    
    
    
    P.M.----------------------------------------|
    e|--------------------------------------------------------------------------------|
    B|--------------------------------------------------------------------------------|
    G|--------------------------------------------------------------------------------|
    D|--------------------------------------------------------------------------------|
    A|--------------------------------------------------------------------------------|
    D|-8-8-8-8-8-8--8-8-8-8--10-8-10-8--8-8-8-8-8--12-10-8-10-8-7-8-7-5-7-5-3-5-3-1-0-|
    
    
    P.M.----------------|    P.M.------------|    P.M     P.M
    e|--------------------------------------------------------------------------------|
    B|--------------------------------------------------------------------------------|
    G|--------------------------------------------------------------------------------|
    D|-------------------------------------------------5\4----5-7-8-7-5-7-5-4-5-------| 
    A|---------------------1--------------------6\5-----------------------------------|
    D|-0-0-0-0-0--0-0-0-0--1--0-0-0-0-0-0-0--0------0------0--------------------------|
    
    
    
    I'm not sure from 2:01 to 2:12, still working on it
    
    2:13
    
    
    P.M.----------------------------------------|
    e|--------------------------------------------------------------------------------|
    B|--------------------------------------------------------------------------------|
    G|--------------------------------------------------------------------------------|
    D|--------------------------------------------------------------------------------|
    A|--------------------------------------------------------------------------------|
    D|-8-8-8-8-8-8--8-8-8-8--10-8-10-8--8-8-8-8-8--12-10-8-10-8-7-8-7-5-7-5-3-5-3-1-0-|
    
    
    Play intro again
    (intro)
    
    
    
    WALK WITH ME IN HELL!
    
    
    2:34
                                                                            -----------
    P.M.--------------------------------------------------------------------------|   |
    e|----------------------------------------------------------------------------|   |
    B|----------------------------------------------------------------------------|   |
    G|----------------------------------------------------------------------------|   |
    D|----------------------------------------------------------------------------|   |
    A|----------------------------------------------------------------------------|   |
    D|0-0--0-0-0-0--0--0-0--0-0-0-0--0--0-0--0-0-0-0--0--0-0---0-0-0--3-1-4-3-1-4-|   |
                                                                                      |   X2
                                                                                      |
    P.M.-------------------------------------------------------------------------|    |
    e|---------------------------------------------------------------------------|    |
    B|---------------------------------------------------------------------------|    |
    G|---------------------------------------------------------------------------|    | 
    D|---------------------------------------------------------------------------|    |
    A|---------------------------------------------------------------------------|    |
    D|-3-1---0-0---0-0-0-0--0--0-0-----------------------------------------------|    |
                                                                            -----------
                     
    
    
                                                                              -------------                                                                                                      |
    P.M.--|           P.M.----|          P.M.         P.M.-|         P.M.----|             |
    e|---------------------------------------------------------------------------------|   |
    B|---------------------------------------------------------------------------------|   |
    G|---------------------------------------------------------------------------------|   |
    D|----------15-14---------------14-13-----------------------15-14------------14-13-|   |
    A|------12-------------------11-----------10-13-12-------12---------------11-------|   |
    D|-0-0--------------0-0-0-0------------0------------0-0-----------0-0-0-0----------|   |
                                                                                           |
    P.M.|          P.M.|         P.M.---|        P.M.         P.M.|                        |
    e|----------------------------------------------------------------------|              |
    B|----------------------------------------------------------------------|              |  X4
    G|----------------------------------------------------------------------|              |
    D|----------8-----------15-14------------14-13--------------------15-14-|              |
    A|-----10-9----------12---------------11---------10-13-12------12-------|              |
    D|--0------------0-0----------0-0-0-0----------0-----------0-0----------|              |
                                                                                           |
    P.M.-------------------|                                                               |
    e|------------------------|                                                            |
    B|------------------------|                                                            |
    G|------------------------|                                                            |
    D|------------------------|                                                            |
    A|------------------------|                                                            | 
    D|-0-0-0-3-1-4-3-1-4-3-1--|                                                            |
                           ----------------------------------------------------------------
    
    
    I'm still working on solo
    
    
    
    This I'm not 100% sure is Palm muted, but it sounds right, or you can just play the intro here again:
    
    e|---------------------------------------------------------------------------|
    B|---------------------------------------------------------------------------|
    G|---------------------------------------------------------------------------|
    D|---------------------------------------------------------------------------|
    A|---------------------------------------------------------------------------|
    D|-0-0-0-0-0-0-0-0-0--0-0-0--0-0-0-0--7-7-7-7-7--7-7-7--7-7-7-7-7-7-7-7--3-3-|
    
    e|---------------------------------------------------------------------------|
    B|---------------------------------------------------------------------------|
    G|---------------------------------------------------------------------------|
    D|---------------------------------------------------------------------------|
    A|---------------------------------------------------------------------------|
    D|-3-3-6-6-6-6-6--6-6-6--6-6-6-6--7-7-7-7--3--3-3-3--3-3-3-3-3--5-5-5-5------|
    
    e|---------------------------------------------------------------------------|
    B|---------------------------------------------------------------------------|
    G|---------------------------------------------------------------------------|
    D|---------------------------------------------------------------------------|
    A|---------------------------------------------------------------------------|
    D|-0-0-0--0-0-0-0-0-0-0-0-0-0-0-0-0-0---7-7-7-7-7-7-7-7-7-7-7-7-7-7-7-7-7--3-|
    
    e|----------------------------------------------------------------------------|
    B|----------------------------------------------------------------------------|
    G|----------------------------------------------------------------------------|
    D|----------------------------------------------------------------------------|
    A|----------------------------------------------------------------------------|
    D|-3-3-3--6-6-6-6-6-6-6-6-6-6-6-6--7-7-7-7--3-3-3-3-3-3-3-3--5-5-5-5--0-0-0-0-|
    
    e|---------------------------------------------------------------------------|
    B|---------------------------------------------------------------------------|
    G|---------------------------------------------------------------------------|
    D|---------------------------------------------------------------------------|
    A|---------------------------------------------------------------------------|
    D|--0------7-----3--3/6----7-3------5----------------------------------------|

    AGAIN WE RISE
    TRACK: #2
    ALBUM: SACRAMENT
    ARTIST: LAMB OF GOD

    Code:
    Again we Rise
    Sacrament - Lamb of God
    By: not me, my friend
    Tuning: D F G C A D   (not DADGBe!!!)
    view this in --> Font: Courier New, size=9, make sure word wrap is on
    
    
    I was too lazy to do the palm  mutes on this, but you can figure it out, pretty much anything on the 6th string
    is palm muted.
    
    
    D |0-0-0-0-0-0-0-0-0-0-0-0-0-0-0-0-0-0-0-0-0-0-0-0-0-0-0-0-0-0-0-0-0-0-0-0-0-0-0-0-0-0-0-0-0-0-0-0-|
    A |5-5-5-5-5-5-5-5-5-5-5-5-5-5-5-5-5-5-5-5-5-5-5-5-4-4-4-4-4-4-4-4-4-4-4-4-7-7-7-7-7-7-8-8-8-8-8-8-|
    F |------------------------------------------------------------------------------------------------|
    C |------------------------------------------------------------------------------------------------|
    G |------------------------------------------------------------------------------------------------|
    D |------------------------------------------------------------------------------------------------|
    
    
    Riff #1
    
    D |----------------------------------------------------------------------------------------|
    A |----------------------------------------------------------------------------------------|
    F |----------------------------------------------------------------------------------------|
    c |----------------------------------------------------------------------------------------|
    G |7h10p7------7h10p7-----7h10p7-----7h10p7-----6h9p6-----6h9p6-----8h12p8-----8h12p8------|
    D |------0-0-0-------0-0-0------0-0-0------0-0-0-----0-0-0-----0-0-0------0-0-0------0-0-0-|
    
    
    Fill
    
    D |----------------------------------------------------------------------------------|
    A |----------------------------------------------------------------------------------|
    F |----------------------------------------------------------------------------------|
    c |-9-7-6----10-9---6----7-----------------------------------------------------------|
    G |-------8-7----7/8-7-8-------------------------------------------------------------|
    D |0---------------------------------------------------------------------------------|
    
    
    Riff #2 (verse 1)
    
    D |-------------------------------------------------------------------------------------------------------|
    A |-------------------------------------------------------------------------------------------------------|
    F |-------------------------------------------------------------------------------------------------------|
    c |-------------------------------------------------------------------------------------------------------|
    G |-------------14-15---------------14-15---------17-15----------------14-15------------------5---5-------|
    D |0-0-0-0-0-12------0-0-0-0-0-0-12------0-0-0-13--------0-0-0-0-0-0-12-----0-0-0-6p0-6p0-6p0--6-5-6-5----|
    
    D |-------------------------------------------------------------------------------------------------------|
    A |-------------------------------------------------------------------------------------------------------|
    F |-----------------------------------------------------------------------------------------------------10|
    c |-------------------------------------------------------------------------------6-6-6-6-6-6-6/7-7-7-7-7-|
    G |-------------14-15---------------14-15---------17-15----------------14-15------7-7-7-7-7-7-7/8-8-8-8-8-|
    D |0-0-0-0-0-12------0-0-0-0-0-0-12------0-0-0-13--------0-0-0-0-0-0-12-----0-0-0-------------------------|
    
    
    
    Riff #1 (chorus)
    
    D |----------------------------------------------------------------------------------------|
    A |----------------------------------------------------------------------------------------|
    F |----------------------------------------------------------------------------------------|
    c |----------------------------------------------------------------------------------------|
    G |7h10p7------7h10p7-----7h10p7-----7h10p7-----6h9p6-----6h9p6-----8h12p8-----8h12p8------|
    D |------0-0-0-------0-0-0------0-0-0------0-0-0-----0-0-0-----0-0-0------0-0-0------0-0-0-|
    
    
    Fill
    D |----------------------------------------------------------------------------------|
    A |----------------------------------------------------------------------------------|
    F |----------------------------------------------------------------------------------|
    c |-9-7-6----10-9---6----7-----------------------------------------------------------|
    G |-------8-7----7/8-7-8-------------------------------------------------------------|
    D |0---------------------------------------------------------------------------------|
    
    
    
    Riff #2 (verse 2)
    
    D |-------------------------------------------------------------------------------------------------------|
    A |-------------------------------------------------------------------------------------------------------|
    F |-------------------------------------------------------------------------------------------------------|
    c |-------------------------------------------------------------------------------------------------------|
    G |-------------14-15---------------14-15---------17-15----------------14-15------------------5---5-------|
    D |0-0-0-0-0-12------0-0-0-0-0-0-12------0-0-0-13--------0-0-0-0-0-0-12-----0-0-0-6p0-6p0-6p0--6-5-6-5----|
    
    D |-------------------------------------------------------------------------------------------------------|
    A |-------------------------------------------------------------------------------------------------------|
    F |-----------------------------------------------------------------------------------------------------10|
    c |-------------------------------------------------------------------------------6-6-6-6-6-6-6/7-7-7-7-7-|
    G |-------------14-15---------------14-15---------17-15----------------14-15------7-7-7-7-7-7-7/8-8-8-8-8-|
    D |0-0-0-0-0-12------0-0-0-0-0-0-12------0-0-0-13--------0-0-0-0-0-0-12-----0-0-0-------------------------|
    
    
    
    Riff #1 (chorus)
    
    D |----------------------------------------------------------------------------------------|
    A |----------------------------------------------------------------------------------------|
    F |----------------------------------------------------------------------------------------|
    c |----------------------------------------------------------------------------------------|
    G |7h10p7------7h10p7-----7h10p7-----7h10p7-----6h9p6-----6h9p6-----8h12p8-----8h12p8------|
    D |------0-0-0-------0-0-0------0-0-0------0-0-0-----0-0-0-----0-0-0------0-0-0------0-0-0-|
    
    
    
    Riff #3 (Riff #1 variation)
    
    D |---------------------------------------------------------------------------------------------|
    A |---------------------------------------------------------------------------------------------|
    F |---------------------------------------------------------------------------------------------|
    c |---------------------------------------------------------------------------------------------|
    G |------------7h10p7-------------------7h10p7-------------6h9p6-------8h12p8-------------3-3-3-|
    D |0-0-0-0-0-0--------0-0-0-0-0-0-0-0-0--------0-0-0-0-0-0-------0-0-0--------0-0-0-0-0-0-1-1-1-|
    
    
    Intro riff
     
    D |0-0-0-0-0-0-0-0-0-0-0-0-0-0-0-0-0-0-0-0-0-0-0-0-0-0-0-0-0-0-0-0-0-0-0-0-0-0-0-0-0-0-0-0-0-0-0-0-|
    A |5-5-5-5-5-5-5-5-5-5-5-5-5-5-5-5-5-5-5-5-5-5-5-5-4-4-4-4-4-4-4-4-4-4-4-4-7-7-7-7-7-7-8-8-8-8-8-8-|
    F |------------------------------------------------------------------------------------------------|
    C |------------------------------------------------------------------------------------------------|
    G |------------------------------------------------------------------------------------------------|
    D |------------------------------------------------------------------------------------------------|
    
    
    Riff #4
    
    Willie (left)
    
    D |------------------------------------------------------------------------------------------------|
    A |------------------------------------------------------------------------------------------------|
    F |------------------------------------------------------------------------------------------------|
    c |------------------------------------------------------------------------------------------7-7-7-|
    G |------------------------------------------------6-6-6-6-6-6-6-6-6-6-6-6-3-3-3-3-3-3-3-3-3-------|
    D |0-0-0-0-0-0-0-0-0-0-0-0-0-0-0-0-0-0-0-0-0-0-0-0-0-0-0-0-0-0-0-0-0-0-0-0-0-0-0-0-0-0-0-0-0-5-5-5-|
    
    
    Mark (right)
    
    D |----------------------------------------------------------------------------------------------------------|
    A |----------------------------------------------------------------------------------------------------------|
    F |----------------------------------------------------------------------------------------------------------|
    c |------------9---10-------------9---10-9h10p9p7--7------------------9--10-----------9---10-9h10p9p7--7-----|
    G |7-7-7-7-7-7---7----7-7-7-7-7-7---7------------10-10-9--6-6-6-6-6-6--6---6-6-6-6-6-6--6------------10-10-9-|
    D |----------------------------------------------------------------------------------------------------------|
    
    
    D |-----------------------------------------------------------------------------------------------------------|
    A |-----------------------------------------------------------------------------------------------------------|
    F |-----------------------------------------------------------------------------------------------------------|
    c |------------9---10-------------9---10-9h10p9p7--7------------------9--10------9h10p9p7--7-----------7-9-10-|
    G |7-7-7-7-7-7---7----7-7-7-7-7-7---7------------10-10-9--6-6-6-6-6-6--6---6-6-6---------10-10-9-7-9-10-------|
    D |-----------------------------------------------------------------------------------------------------------|
    
    
    Lead (Mark Morton)
    
    D |----------------------------------------------------------------------------------|
    A |----------------------------------------------------------------------------------|
    F |----------------------------------------------------------------------------------|
    c |----------------------------------------------------------------------------------|
    G |----------------------------------------------------------------------------------|
    D |----------------------------------------------------------------------------------|
    
    
    Fill
    
    D |----------------------------------------------------------------------------------|
    A |----------------------------------------------------------------------------------|
    F |----------------------------------------------------------------------------------|
    c |-9-7-6----10-9---6----7-----------------------------------------------------------|
    G |-------8-7----7/8-7-8-------------------------------------------------------------|
    D |0---------------------------------------------------------------------------------|
    
    
    Riff #2 (verse 3)
    
    D |-------------------------------------------------------------------------------------------------------|
    A |-------------------------------------------------------------------------------------------------------|
    F |-------------------------------------------------------------------------------------------------------|
    c |-------------------------------------------------------------------------------------------------------|
    G |-------------14-15---------------14-15---------17-15----------------14-15------------------5---5-------|
    D |0-0-0-0-0-12------0-0-0-0-0-0-12------0-0-0-13--------0-0-0-0-0-0-12-----0-0-0-6p0-6p0-6p0--6-5-6-5----|
    
    D |-------------------------------------------------------------------------------------------------------|
    A |-------------------------------------------------------------------------------------------------------|
    F |-----------------------------------------------------------------------------------------------------10|
    c |-------------------------------------------------------------------------------6-6-6-6-6-6-6/7-7-7-7-7-|
    G |-------------14-15---------------14-15---------17-15----------------14-15------7-7-7-7-7-7-7/8-8-8-8-8-|
    D |0-0-0-0-0-12------0-0-0-0-0-0-12------0-0-0-13--------0-0-0-0-0-0-12-----0-0-0-------------------------|
    
    
    D |--------------------------------------------------------------------------------------------|
    A |--------------------------------------------------------------------------------------------|
    F |--------------------------------------------------------------------------------------------|
    c |--------------------------------------------------------------------------------------------|
    G |-----------------------------------------------------------------------------------5---5----|
    D |0-0-0-0-0-------0-0-0-0-0-0-------0-0-0---------0-0-0-0-0-0------0-0-0-6p0-6p0-6p0--6-5-6-5-|
    
    D |-----------------------------------------------------------------------------------------------|
    A |-----------------------------------------------------------------------------------------------|
    F |-----------------------------------------------------------------------------------------------|
    c |-----------------------------------------------------------------------6-6-6-6-6-6-6/7-7-7-7-7-|
    G |-----------------------------------------------------------------------7-7-7-7-7-7-7/8-8-8-8-8-|
    D |0-0-0-0-0-------0-0-0-0-0-0-------0-0-0---------0-0-0-0-0-0------0-0-0-------------------------|
    
    
    Riff #1 (chorus)
    
    D |----------------------------------------------------------------------------------------|
    A |----------------------------------------------------------------------------------------|
    F |----------------------------------------------------------------------------------------|
    c |----------------------------------------------------------------------------------------|
    G |7h10p7------7h10p7-----7h10p7-----7h10p7-----6h9p6-----6h9p6-----8h12p8-----8h12p8------|
    D |------0-0-0-------0-0-0------0-0-0------0-0-0-----0-0-0-----0-0-0------0-0-0------0-0-0-|
    
    
    Riff #3 (Riff #1 variation)
    
    D |---------------------------------------------------------------------------------------------|
    A |---------------------------------------------------------------------------------------------|
    F |---------------------------------------------------------------------------------------------|
    c |---------------------------------------------------------------------------------------------|
    G |------------7h10p7-------------------7h10p7-------------6h9p6-------8h12p8-------------3-3-3-|
    D |0-0-0-0-0-0--------0-0-0-0-0-0-0-0-0--------0-0-0-0-0-0-------0-0-0--------0-0-0-0-0-0-1-1-1-|
    
    Harmony
    
    D |-----------------------------------------------------------------------------------------------|
    A |-----------------------------------------------------------------------------------------------|
    F |-----------------------------------------------------------------------------------------------|
    c |-----------------------------------------------------------------------------------------------|
    G |------------10h14p10-----------------10h14p10-----------9h12p9-------12h15p12------------3-3-3-|
    D |0-0-0-0-0-0---------0-0-0-0-0-0-0-0-0--------0-0-0-0-0-0-------0-0-0---------0-0-0-0-0-0-1-1-1-|
    
    
    Riff #2 (staccato verse)
    
    D |--------------------------------------------------------------------------------------------|
    A |--------------------------------------------------------------------------------------------|
    F |--------------------------------------------------------------------------------------------|
    c |--------------------------------------------------------------------------------------------|
    G |-----------------------------------------------------------------------------------5---5----|
    D |0-0-0-0-0-------0-0-0-0-0-0-------0-0-0---------0-0-0-0-0-0------0-0-0-6p0-6p0-6p0--6-5-6-5-|
    
    D |-----------------------------------------------------------------------------------------------|
    A |-----------------------------------------------------------------------------------------------|
    F |-----------------------------------------------------------------------------------------------|
    c |-----------------------------------------------------------------------6-6-6-6-6-6-6/7-7-7-7-7-|
    G |-----------------------------------------------------------------------7-7-7-7-7-7-7/8-8-8-8-8-|
    D |0-0-0-0-0-------0-0-0-0-0-0-------0-0-0---------0-0-0-0-0-0------0-0-0-------------------------|
    
    
    Lead line
    
    D |---------------------|
    A |--------------------.|
    F |------12-8-11-5---5--|
    c |----9-----------7---.|
    G |7--------------------|
    D |---------------------|
    
    
    End
    
    D |----------------------------------------------------------------------------------|
    A |----------------------------------------------------------------------------------|
    F |----------------------------------------------------------------------------------|
    c |----------------------------------------------------------------------------------|
    G |----------------------------------------------------------------------------------|
    D |0-0-0-0-0-0-----------------------------------------------------------------------|
    I know very well there's a tab floating around on the net of Walk with me in hell, but I tabbed it first and helped mustaine tab it as well (who posted it on the net), my version is more accurate since I made revisions to it.
    Last edited by cpt_azad; 08-24-2006 at 04:16 AM.

    Jeff Loomis: He's so good, he doesn't need to be dead to have a tribute.

  2. Music   -   #2
    cpt_azad's Avatar Colonel
    Join Date
    Aug 2003
    Location
    Surrey, BC
    Posts
    6,741
    I'm not posting Redneck cuz it's already available and 100% accurate so no point in tabbing that out, and I'm still working on "Pathetic".


    FOOT TO THE THROAT

    TRACK: #5
    ALBUM: SACRAMENT
    ARTIST: LAMB OF GOD



    Code:
    Foot to the Throat
    Sacrament - Lamb of God
    By: Tabreez Azad
    Tuning: DADGBe (alternate: BF#BEG#C#)
    view this in --> Font: Courier New, make sure word wrap is on
    
    
    Now I'm jsut getting lazy, it's easy enough, whenever you see "etc" below something, that means play any riffs in
    between the last etc. and the on your looking at over again (usually twice), listen to the song you'll get it.
    
    
    ------------------------------------------------------------------------------
    ------------------------------------------------------------------------------
    ------------------------------------------------------------------------------
    -7\------------------------------------------------10\------------------------
    -5\-------------------------------------------5-4---8\------------------------
    ----0-0-0--0-0-0--0-0-0--0-0-0--0-0-0--0-0-0------------0-0-0--0-0-0--0-0-0---
                                                                                 
    
    ------------------------------------------------------------------------------
    ------------------------------------------------------------------------------
    ------------------------------------------------------------------------------
    ----------------------7\------------------------------------------------------
    --6---------3---------5\--------------------------------------------5-4-------
    --6--0-0-0--3--0-0-0------0-0-0--0-0-0--0-0-0--0-0-0--0-0-0--0-0-0------4-3---
                                                                                 
    
    ------------------------------------------------------------------------------
    ------------------------------------------------------------------------------
    ------------------------------------------------------------------------------
    ----3-------------------------------------------------------------------------
    --2---2-----------------------------------------------------------------------
    --------6-7-6--9b10r9-7-9-7-4-6-3---------------------------------------------
                                   etc                                           
    
    ------------------------------------------------------------------------------
    ------------------------------------------------------------------------------
    ------------------------------------------------------------------------------
    ----------------------------------7\-------------------------10\--------------
    -2-2-2-2-2-2-2--2/3--3-3-3-3-6-3--5\---------------------5-4--8\---------6----
    -2-2-2-2-2-2-2--2/3--3-3-3-3---------0-0-0-0-0-0-0-0-0-0---------0-0-0-0-6----
                                                                                 
    
    ------------------------------------------------------------------------------
    ------------------------------------------------------------------------------
    ------------------------------------------------------------------------------
    -----------7\-------------------------------3---------------------------------
    -----3-----5\---------------------5-4-----2---2-------------------------------
    -0-0-3-0-0----0-0-0-0-0-0-0-0-0-0-----4-3--------6-7-6--9b10r9-7-9-7-4-6-3----
                                                                                 
    
    ------------------------------------------------------------------------------
    ------------------------------------------------------------------------------
    ------------------------------------------------------------------------------
    --7\--------------------------10\---------------------7\----------------------
    --5\---------------------5-4---8\---------6-----3-----5\----------------------
    -----0-0-0-0-0-0-0-0-0-0----------0-0-0-0-6-0-0-3-0-0----0-0-0-0-0-0-0-0-0-0--
                                                                                 
    
    ------------------------------------------------------------------------------
    ------------------------------------------------------------------------------
    ------------------------------------------------------------------------------
    -----------3----------------------------8-------------------------------------
    -5-4-----2---2--------------------------6--------------9b10r9-----------------
    -----4-3-------6-7-6--9b10r9--7-9-10-9------0--0-10-13--------13--0--0-0-0----
                                                                                 
    
    ------------------------------------------------------------------------------
    ------------------------------------------------------------------------------
    ------------------------------------------------------------------------------
    -----------12-----------------------------------------------------------------
    --5/8-11-8-----------4-7--7h8p7-8----------5-8-7-4-6---------------9b10r9-----
    --------------0--0-0---------------0--0-0--5-8-7-4-6--0--0-0-10-13--------13--
                                                                                 
    
    ------------------------------------------------------------------------------
    ------------------------------------------------------------------------------
    ------------------------------------------------------------------------------
    -------------------12----------7-7h8p7-----------2-2h3p2----------------------
    ----------5/8-11-8----4-----10---------9--3----5---------4--------------------
    -0--0-0-0-------------4---8---------------3--3--------------------------------
                                                                etc               
    
    ------------------------------------------------------------------------------
    ------------------------------------------------------------------------------
    ------------------------------------------------------------------------------
    ---------7-7h8p7--------12----------------------------------------------------
    --8---10---------10--10----10-11\--3-2-0--------------------------------------
    --8-8----------------10----10-11\--3-2-0--------------------------------------
                                                                                 
    
    ------------------------------------------------------------------------------
    ------------------------------------------------------------------------------
    ------------------------------------------------------------------------------
    --3-6-6h7p6-3----------3-6-6h7p6-3----------------3-2-----3-------------------
    -------------------0----------------------------1-----4-5---0-----------------
    -------------------0------------------0-0-------------------0-----------------
                                              etc                   etc           
    
    ------------------------------------------------------------------------------
    ------------------------------------------------------------------------------
    ------------------------------------------------------------------------------
    -------------------------------------------------------------------------3-2--
    -----------------------------------------------------------------------1------
    --3-2-4-3-2-3-7-6-4-7-6-3--0--0-0-0-0-0-0--0--0-0-0--0-0-0-0-0-0-0-0-0--------
                                                                                 
    
    ------------------------------------------------------------------------------
    ------------------------------------------------------------------------------
    ------------------------------------------------------------------------------
    -----3----------------------------------------3-2-----3-----3-6-6h7p6-3-------
    -4-5----------------------------------------1-----4-5---0------------------0--
    -------0--0-0-0-0-0-0--0--0-0-0-0-0-0-0-0-0-------------0------------------0--
                                                                                 
    
    ------------------------------------------------------------------------------
    ------------------------------------------------------------------------------
    ------------------------------------------------------------------------------
    -3-6-6h7p6-3--------3-6-6h7p6-3--------3-2-----3------------------------------
    -----------------0-------------------1-----4-5---0----------------------------
    -----------------0-------------------------------0--3-2-4-3-2-4-7-6-4-7-6-3-0-
                                                                                 
    
    ------------------------------------------------------------------------------
    ------------------------------------------------------------------------------
    ------------------------------------------------------------------------------
    -----------------------------------------------3-2-----3----------------------
    ---------------------------------------------1-----4-5------------------------
    -0--0-0-0-0-0-0--0--0-0-0--0-0-0-0-0-0-0-0-0----------------------------------
                                                             etc                 
    
    ------------------------------------------------------------------------------
    ------------------------------------------------------------------------------
    -------------------------------------------------------4/6--------------------
    -------3-6-6h7p6-3------------------------------------------------------------
    --5-----------------8-----------------7---4-7-7h8p7-8-------1-4-4h5p4-5-------
    -----------------------3-6-6h7p6-3--------------------------------------------
                                                                                 
    
    ------------------------------------------------------------------------------
    ------------------------------------------------------------------------------
    ------------------------------------------------------------------------------
    ----3-6-6h7p6-3----------------------7\---------------------------------------
    --------------------------------0----5\---------------------------------------
    --0--------------0-3-6-6h7p6-3--0--------0-0-0--0-0-0--0-0-0--0-0-0--0-0-0----
                                                                                 
    
    ------------------------------------------------------------------------------
    ------------------------------------------------------------------------------
    ------------------------------------------------------------------------------
    -------------0----------------------------------------------------------------
    --------5-4--0----------------------------------------------------------------
    -0-0-0-------0----------------------------------------------------------------

    DESCENDING
    TRACK: #6
    ALBUM: SACRAMENT
    ARTIST: LAMB OF GOD

    Code:
    Descending
    Sacrament - Lamb of God
    By: Tabreez Azad
    Tuning: DADGBe (alternate: BF#BEG#C#)
    view this in --> Font: Courier New, make sure word wrap is on
    
    
    This tab is 100% complete and accurate, enjoy, once again, I didn't put P.M. in because I'm too lazy to =P, but it's easy to figure out, listen to the song, and as before most of the palm mutes are on the 6th string so that should be easy enough.  Also * means Pinch Harmonics.  Have fun.
    
    ---------------------------------------------------------------------
    ---------------------------------------------------------------------
    ---------------------------------------------------------------------
    ---------------------------------------------------------------------
    --13-----------12-13-----------12-13-----------12-13-----------13-12-
    -----12-0-12-0-------12-0-12-0-------12-0-12-0-------12-0-12-0-------
    
    ---------------------------------------------------------------------
    ---------------------------------------------------------------------
    ---------------------------------------------------------------------
    ---------------------------------------------------------------------
    -------------12-------------12-------------12------------------------
    -0-12-0-12-0----0-12-0-12-0----0-12-0-12-0----0-12-0-12-0------------
    
    
    ---------------------------------------------------------------------
    ---------------------------------------------------------------------
    ---------------------------------------------------------------------
    ---------------------------------------------------------------------
    --13-----------12-13-----------12-13-----------12-13-----------13-12-
    -----12-0-12-0-------12-0-12-0-------12-0-12-0-------12-0-12-0-------
    
    ---------------------------------------------------------------------
    ---------------------------------------------------------------------
    ---------------------------------------------------------------------
    ---------------------------------------------------------------------
    -------------12-------------12-------------12------------------------
    -0-12-0-12-0----0-12-0-12-0----0-12-0-12-0----0-12-0-12-0------------
    
    ---------------------------------------------------------------------
    ---------------------------------------------------------------------
    ---------------------------------------------------------------------
    ---------------------------------------------------------------------
    --13-----------12-13-----------12-13-----------12-13-----------13-12-
    -----12-0-12-0-------12-0-12-0-------12-0-12-0-------12-0-12-0-------
    
    ---------------------------------------------------------------------
    ---------------------------------------------------------------------
    ---------------------------------------------------------------------
    ---------------------------------------------------------------------
    -------------12-------------12-------------12------------------------
    -0-12-0-12-0----0-12-0-12-0----0-12-0-12-0----0-12-0-12-0------------
    
    ---------------------------------------------------------------------
    ---------------------------------------------------------------------
    ---------------------------------------------------------------------
    ---------------------------------------------------------------------
    --13-----------12-13-----------12-13-----------12-13-----------13-12-
    -----12-0-12-0-------12-0-12-0-------12-0-12-0-------12-0-12-0-------
    
    ---------------------------------------------------------------------
    ---------------------------------------------------------------------
    ---------------------------------------------------------------------
    ---------------------------------------------------------------------
    -------------12-------------12-------------12------------------------
    -0-12-0-12-0----0-12-0-12-0----0-12-0-12-0----0-12-0-12-0------------
    
    
    ----------------------------------------------------------------------
    ----------------------------------------------------------------------
    ----------------------------------------------------------------------
    --101010101010-999999-777777-555555-----------------------------------
    --8-8-8-8-8-8--777777-555555-333333-----------------------------------
    --8-8-8-8-8-8--777777-555555-333333---0-0-0h3p0-0-0h3h1bp0-0h3-0-0-1h3
    
    
    ----------------------------------------------------------------------
    ----------------------------------------------------------------------
    ----------------------------------------------------------------------
    --101010101010-999999-777777-555555-----------------------------------
    --8-8-8-8-8-8--777777-555555-333333-----------------------------------
    --8-8-8-8-8-8--777777-555555-333333-----------------------------------
    
    ---------------------------------------------------------------------
    ---------------------------------------------------------------------
    ---------------------------------------------------------------------
    ---------------------------------------------------------------------
    --13-----------12-13-----------12-13-----------12-13-----------13-12-
    -----12-0-12-0-------12-0-12-0-------12-0-12-0-------12-0-12-0-------
    
    ---------------------------------------------------------------------
    ---------------------------------------------------------------------
    ---------------------------------------------------------------------
    ---------------------------------------------------------------------
    -------------12-------------12-------------12------------------------
    -0-12-0-12-0----0-12-0-12-0----0-12-0-12-0----0-12-0-12-0------------
    
    ---------------------------------------------------------------------
    ---------------------------------------------------------------------
    ---------------------------------------------------------------------
    ---------------------------------------------------------------------
    --13-----------12-13-----------12-13-----------12-13-----------13-12-
    -----12-0-12-0-------12-0-12-0-------12-0-12-0-------12-0-12-0-------
    
    ---------------------------------------------------------------------
    ---------------------------------------------------------------------
    ---------------------------------------------------------------------
    ---------------------------------------------------------------------
    -------------12-------------12-------------12------------------------
    -0-12-0-12-0----0-12-0-12-0----0-12-0-12-0----0-12-0-12-0------------
    
    ---------------------------------------------------------------------
    ---------------------------------------------------------------------
    ---------------------------------------------------------------------
    ---------------------------------------------------------------------
    --13-----------12-13-----------12-13-----------12-13-----------13-12-
    -----12-0-12-0-------12-0-12-0-------12-0-12-0-------12-0-12-0-------
    
    ---------------------------------------------------------------------
    ---------------------------------------------------------------------
    ---------------------------------------------------------------------
    ---------------------------------------------------------------------
    -------------12-------------12-------------12------------------------
    -0-12-0-12-0----0-12-0-12-0----0-12-0-12-0----0-12-0-12-0------------
    
    ---------------------------------------------------------------------
    ---------------------------------------------------------------------
    ---------------------------------------------------------------------
    ---------------------------------------------------------------------
    --13-----------12-13-----------12-13-----------12-13-----------13-12-
    -----12-0-12-0-------12-0-12-0-------12-0-12-0-------12-0-12-0-------
    
    ---------------------------------------------------------------------
    ---------------------------------------------------------------------
    ---------------------------------------------------------------------
    ---------------------------------------------------------------------
    -------------12-------------12-------------12------------------------
    -0-12-0-12-0----0-12-0-12-0----0-12-0-12-0----0-12-0-12-0------------
    
    ----------------------------------------------------------------------
    ----------------------------------------------------------------------
    ----------------------------------------------------------------------
    --101010101010-999999-777777-555555-----------------------------------
    --8-8-8-8-8-8--777777-555555-333333-----------------------------------
    --8-8-8-8-8-8--777777-555555-333333---0-0-0h3p0-0-0h3h1bp0-0h3-0-0-1h3
    
    
    ----------------------------------------------------------------------
    ----------------------------------------------------------------------
    ----------------------------------------------------------------------
    --101010101010-999999-777777-555555-----------------------------------
    --8-8-8-8-8-8--777777-555555-333333-----------------------------------
    --8-8-8-8-8-8--777777-555555-333333-----------------------------------
    
    ---------------------------------------------------------------------
    ---------------------------------------------------------------------
    ---------------------------------------------------------------------
    ---------------------------------------------------------------------
    --13-----------12-13-----------12-13-----------12-13-----------13-12-
    -----12-0-12-0-------12-0-12-0-------12-0-12-0-------12-0-12-0-------
    
    ---------------------------------------------------------------------
    ---------------------------------------------------------------------
    ---------------------------------------------------------------------
    ---------------------------------------------------------------------
    -------------12-------------12-------------12------------------------
    -0-12-0-12-0----0-12-0-12-0----0-12-0-12-0----0-12-0-12-0------------
    
    ---------------------------------------------------------------------
    ---------------------------------------------------------------------
    ---------------------------------------------------------------------
    ---------------------------------------------------------------------
    --13-----------12-13-----------12-13-----------12-13-----------13-12-
    -----12-0-12-0-------12-0-12-0-------12-0-12-0-------12-0-12-0-------
    
    ---------------------------------------------------------------------
    ---------------------------------------------------------------------
    ---------------------------------------------------------------------
    ---------------------------------------------------------------------
    -------------12-------------12-------------12------------------------
    -0-12-0-12-0----0-12-0-12-0----0-12-0-12-0----0-12-0-12-0------------
    
    ---------------------------------------------------------------------
    ---------------------------------------------------------------------
    ---------------------------------------------------------------------
    ---------------------------------------------------------------------
    --13-----------12-13-----------12-13-----------12-13-----------13-12-
    -----12-0-12-0-------12-0-12-0-------12-0-12-0-------12-0-12-0-------
    
    ---------------------------------------------------------------------
    ---------------------------------------------------------------------
    ---------------------------------------------------------------------
    ---------------------------------------------------------------------
    -------------12-------------12-------------12------------------------
    -0-12-0-12-0----0-12-0-12-0----0-12-0-12-0----0-12-0-12-0------------
    
    ---------------------------------------------------------------------
    ---------------------------------------------------------------------
    ---------------------------------------------------------------------
    ---------------------------------------------------------------------
    --13-----------12-13-----------12-13-----------12-13-----------13-12-
    -----12-0-12-0-------12-0-12-0-------12-0-12-0-------12-0-12-0-------
    
    ---------------------------------------------------------------------
    ---------------------------------------------------------------------
    ---------------------------------------------------------------------
    ---------------------------------------------------------------------
    -------------12-------------12-------------12------------------------
    -0-12-0-12-0----0-12-0-12-0----0-12-0-12-0----0-12-0-12-0------------
    
    ---------------------------------------------------------------------
    ---------------------------------------------------------------------
    ---------------------------------------------------------------------
    ---------------------------------------------------------------------
    --13-----------12-13-----------12-13-----------12-13-----------13-12-
    -----12-0-12-0-------12-0-12-0-------12-0-12-0-------12-0-12-0-------
    
    ---------------------------------------------------------------------
    ---------------------------------------------------------------------
    ---------------------------------------------------------------------
    ---------------------------------------------------------------------
    -------------12-------------12-------------12------------------------
    -0-12-0-12-0----0-12-0-12-0----0-12-0-12-0----0-12-0-12-0------------
    
    ---------------------------------------------------------------------
    ---------------------------------------------------------------------
    ---------------------------------------------------------------------
    ---------------------------------------------------------------------
    --13-----------12-13-----------12-13-----------12-13-----------13-12-
    -----12-0-12-0-------12-0-12-0-------12-0-12-0-------12-0-12-0-------
    
    ---------------------------------------------------------------------
    ---------------------------------------------------------------------
    ---------------------------------------------------------------------
    ---------------------------------------------------------------------
    -------------12-------------12-------------12------------------------
    -0-12-0-12-0----0-12-0-12-0----0-12-0-12-0----0-12-0-12-0------------
    
    ----------------------------------------------------------------------
    ----------------------------------------------------------------------
    ----------------------------------------------------------------------
    --101010101010-999999-777777-555555-----------------------------------
    --8-8-8-8-8-8--777777-555555-333333-----------------------------------
    --8-8-8-8-8-8--777777-555555-333333---0-0-0h3p0-0-0h3h1bp0-0h3-0-0-1h3
    
    
    ----------------------------------------------------------------------
    ----------------------------------------------------------------------
    ----------------------------------------------------------------------
    --101010101010-999999-777777-555555-----------------------------------
    --8-8-8-8-8-8--777777-555555-333333-----------------------------------
    --8-8-8-8-8-8--777777-555555-333333-----------------------------------
    
    ---------------------------------------------------------------------
    ---------------------------------------------------------------------
    ---------------------------------------------------------------------
    -7xx7h87xx7h8--------------------------------------------------------
    -7xx7h87xx7h8--------------------------------------------------------
    -7xx7h87xx7h8-8h9p8-7-8-7-5-7-5-3-5-8--------------------------------
    
    ---------------------------------------------------------------------
    ---------------------------------------------------------------------
    ---------------------------------------------------------------------
    -7xx7h87xx7h8--------------------------------------------------------
    -7xx7h87xx7h8--------------------------------------------------------
    -7xx7h87xx7h8-8h9p8-7-8-7-5-7-5-3-5-8--------------------------------
    
    ---------------------------------------------------------------------
    ---------------------------------------------------------------------
    ---------------------------------------------------------------------
    -12xx12h11h12xx12h11-------------------------------------------------
    -12xx12h11h12xx12h11-------------------------------------------------
    -12xx12h11h12xx12h11-16h17p16-15-16-15-13-15-13-11-13-11-9-16--------
    
    ---------------------------------------------------------------------
    ---------------------------------------------------------------------
    ---------------------------------------------------------------------
    -12xx12h11h12xx12h11-------------------------------------------------
    -12xx12h11h12xx12h11-------------------------------------------------
    -12xx12h11h12xx12h11-16h17p16-15-16-15-13-15-13-11-13-11-9-16--------
    
    ----------------------------------------------------------------------
    ----------------------------------------------------------------------
    ----------------------------------------------------------------------
    --101010101010-999999-777777-555555-----------------------------------
    --8-8-8-8-8-8--777777-555555-333333-----------------------------------
    --8-8-8-8-8-8--777777-555555-333333---0-0-0h3p0-0-0h3h1bp0-0h3-0-0-1h3
    
    
    ----------------------------------------------------------------------
    ----------------------------------------------------------------------
    ----------------------------------------------------------------------
    --101010101010-999999-777777-555555-----------------------------------
    --8-8-8-8-8-8--777777-555555-333333-----------------------------------
    --8-8-8-8-8-8--777777-555555-333333-----------------------------------
    
    ---------------------------------------------------------------------
    ---------------------------------------------------------------------
    ---------------------------------------------------------------------
    ---------------------------------------------------------------------
    ---------------------------------------------------------------------
    --8888888-777777-555555-333333---------------------------------------
    
    Stop (listen to the song, whole band comes to a stop)
    
    ---------------------------------------------------------------------
    ---------------------------------------------------------------------
    ---------------------------------------------------------------------
    ---------------------------------------------------------------------
    -------------12-------------12-------------12------------------------
    -0-12-0-12-0----0-12-0-12-0----0-12-0-12-0----0-12-0-12-0------------
    
    ---------------------------------------------------------------------
    ---------------------------------------------------------------------
    ---------------------------------------------------------------------
    ---------------------------------------------------------------------
    --13-----------12-13-----------12-13-----------12-13-----------13-12-
    -----12-0-12-0-------12-0-12-0-------12-0-12-0-------12-0-12-0-------
    
    ---------------------------------------------------------------------
    ---------------------------------------------------------------------
    ---------------------------------------------------------------------
    ---------------------------------------------------------------------
    -------------12-------------12-------------12------------------------
    -0-12-0-12-0----0-12-0-12-0----0-12-0-12-0----0-12-0-12-0------------
    
    ---------------------------------------------------------------------
    ---------------------------------------------------------------------
    ---------------------------------------------------------------------
    ---------------------------------------------------------------------
    --13-----------12-13-----------12-13-----------12-13-----------13-12-
    -----12-0-12-0-------12-0-12-0-------12-0-12-0-------12-0-12-0-------
    
    ---------------------------------------------------------------------
    ---------------------------------------------------------------------
    ---------------------------------------------------------------------
    ---------------------------------------------------------------------
    -------------12-------------12-------------12------------------------
    -0-12-0-12-0----0-12-0-12-0----0-12-0-12-0----0-12-0-12-0------------
    
    ---------------------------------------------------------------------
    ---------------------------------------------------------------------
    ---------------------------------------------------------------------
    ---------------------------------------------------------------------
    --13-----------12-13-----------12-13-----------12-13-----------13-12-
    -----12-0-12-0-------12-0-12-0-------12-0-12-0-------12-0-12-0-------
    
    ------------------------------------------------------------------------
    ------------------------------------------------------------------------
    ------------------------------------------------------------------------
    ------------------------------------------------------------------------
    -------------12*-------------12*-------------12*------------------------
    -0-12-0-12-0-----0-12-0-12-0-----0-12-0-12-0-----0-12-0-12-0------------
    
    On these last 2 bars, the high 12 sounds like it has a little
    bit of a pinch harmonic on it.
    
    ------------------------------------------------------------------------
    ------------------------------------------------------------------------
    ------------------------------------------------------------------------
    ------------------------------------------------------------------------
    -------------12*-------------12*-------------12*------------------------
    -0-12-0-12-0-----0-12-0-12-0-----0-12-0-12-0-----0-12-0-12-0------------
    
    -------------------------------------------------------------------------
    -------------------------------------------------------------------------
    -------------------------------------------------------------------------
    -------------------------------------------------------------------------
    -------------12*-------------12*-------------12*-------------------------
    -0-12-0-12-0-----0-12-0-12-0-----0-12-0-12-0-----0-12-0-12-0-------------

    Jeff Loomis: He's so good, he doesn't need to be dead to have a tribute.

  3. Music   -   #3
    cpt_azad's Avatar Colonel
    Join Date
    Aug 2003
    Location
    Surrey, BC
    Posts
    6,741
    BLACKEN THE CURSED SUN INTRO
    TRACK: #6
    ALBUM: SACRAMENT
    ARTIST: LAMB OF GOD


    Code:
    Blacken the Cursed Sun Intro
    Sacrament - Lamb of God
    By: Tabreez Azad
    Tuning: DADGBe
    view this in --> Font: Courier New, size=9, make sure word wrap is on
    
    
                                             \
                                              \
    Mark Morton:                               \
                                                \
    Riff 1a:                                     \
    e -----------------------------------        |
    B -----------------------------------        |
    G -----------------------------------        |
    D -----------------------------------        |
    A -----------------------------------        |
    D -11/12-12-12-12-12-12-12-12-12-12--        |
              .  .  .  .  .  .  .  .  .          |
                                                 |
    Riff 2a:                                     |
    e -----------------------------------        |
    B -----------------------------------        |
    G -----------------------------------        |
    D -----------------------------------        |
    A -----------------------------------        |
    D -12/15-15-15-15-15-15-15-15-15-15--        |
              .  .  .  .  .  .  .  .  .          |
                                                 |
    Riff 3a:                                     |
    e -----------------------------------        |
    B -----------------------------------        |
    G -----------------------------------        |
    D -----------------------------------        |
    A -----------------------------------        |
    D -15\14-14-14-14-14-14-14-14-14-14--        |
              .  .  .  .  .  .  .  .  .          |
                                                 |
    Riff 4a:                                     |
    e --------------------------------------     |
    B --------------------------------------     |
    G --------------------------------------     |
    D --------------------------------------     |
    A --------------------------------------     |       
    D -14\10-10-10-10-10-10/11-11-11-11-11--     |        \     /   ------
              .  .  .  .        .  .  .  .       |         \   /          |
                                                 | ---      \ /           |
                                                 | ---       \      ------
    Riff 1a:                                     | ---      / \     |
    e -----------------------------------        |         /   \    |
    B -----------------------------------        |        /     \   -------
    G -----------------------------------        |
    D -----------------------------------        |
    A -----------------------------------        |
    D -11/12-12-12-12-12-12-12-12-12-12--        |
              .  .  .  .  .  .  .  .  .          |
                                                 |
    Riff 2a:                                     |
    e -----------------------------------        |
    B -----------------------------------        |
    G -----------------------------------        |
    D -----------------------------------        |
    A -----------------------------------        |
    D -12/15-15-15-15-15-15-15-15-15-15--        |
              .  .  .  .  .  .  .  .  .          |
                                                 |
    Riff 3a:                                     |
    e -----------------------------------        |
    B -----------------------------------        |
    G -----------------------------------        |
    D -----------------------------------        |
    A -----------------------------------        |
    D -15\14-14-14-14-14-14-14-14-14-14--        |
              .  .  .  .  .  .  .  .  .          |
                                                 |
    Riff 4b:                                     |
    e --------------------------------------     |
    B --------------------------------------     |
    G --------------------------------------     |
    D --------------------------------------     |
    A --------------------------------------     |
    D -14\10-10-10-10-10-10/13-13-13-13-13--     |
              .  .  .  .        .  .  .  .       |
                                                /
                                               /
                                              /
                                             /                                                   
                                            /
                         
    
    
    
    
    Willie kicks in just when Mark slides from 10/13 the first time (before Mark repeats riffs 1a-4a):
    
    
    Willie:
    
    Riff 5a:
    e ------------------------
    B ------------------------
    G ------------------------
    D -4\3-3-3-3-3-3-3-3-3-3--
    A ------------------------
    D ------------------------
           . . . . . . . . .
    
    
    Riff 6a:
    e ------------------------
    B ------------------------
    G ------------------------
    D -3/7-7-7-7-7-7-7-7-7-7--
    A ------------------------
    D ------------------------
           . . . . . . . . .
    
    Riff 7a:
    e ------------------------
    B ------------------------
    G ------------------------
    D -7\6-6-6-6-6-6-6-6-6-6--
    A ------------------------
    D ------------------------
           . . . . . . . . .
    
    Riff 8a:
    e --------------------------
    B --------------------------
    G --------------------------
    D -6\1-1-1-1-1-1/5-5-5-5-5--
    A --------------------------
    D --------------------------
           . . . .     . . . .
    
    
    Repeat Mark's part twice, and repeat Willie's twice HOWEVER when you get to  Riff 7a, just start easing off the palm mute about half way through and start tremelo picking the 6's (on the 4th string),listen to the song you'll get the idea.
    
    I'll post the entire tab when I'm done, hopefully soon, have fun!  Comments/suggestions always welcome.
    
    And I know perfectly well Willie's part can be played higher up on the 6th string like he does on hourglass, so here you go nitpicky bastards =P:
    
    Willie's part (alternate version):
    
    
    Riff 5b:
    e -----------------------------------
    B -----------------------------------
    G -----------------------------------
    D -----------------------------------
    A -----------------------------------
    D -16\15-15-15-15-15-15-15-15-15-15--
              .  .  .  .  .  .  .  .  .
    
    
    Riff 6b:
    e -----------------------------------
    B -----------------------------------
    G -----------------------------------
    D -----------------------------------
    A -----------------------------------
    D -15/19-19-19-19-19-19-19-19-19-19--
              .  .  .  .  .  .  .  .  .
    
    Riff 7b:
    e -----------------------------------
    B -----------------------------------
    G -----------------------------------
    D -----------------------------------
    A -----------------------------------
    D -19\18-18-18-18-18-18-18-18-18-18--
             .  .  .  .  .  .  .  .  .
    
    Riff 8b:
    e --------------------------------------
    B --------------------------------------
    G --------------------------------------
    D --------------------------------------
    A --------------------------------------
    D -18\13-13-13-13-13-13/15-15-15-15-15--
              .  .  .  .        .  .  .  .

    FORGOTTEN (LOST ANGELS)
    TRACK: #6
    ALBUM: SACRAMENT
    ARTIST: LAMB OF GOD

    Code:
    Forgotten (Lost Angels)
    Sacrament - Lamb of God
    By: Tabreez Azad
    Tuning: DADGBe (alternate: BF#BEG#C#)
    view this in --> Font: Courier New, make sure word wrap is on
                            
    
                                                       
    I'm still working on this, but the tab is COMPLETE, it's just not 100% correct (as in wrong notes).
    Once again, etc means repeat parts that preceded it, 6th string is almost always muted, listen to the song you'll get the idea.
    
    
    ------------------------------------------------------------------------------
    ------------------------------------------------------------------------------
    ------------------------------------------------------------------------------
    ------------------------------------------------------------------------------
    ---13-------13-12-----12\8----8\7----7--7\6-----13-------13-12----12----------
    -0----15-12-------15-------11------7----7\6---0----15-12-------15-------------
                                                                                 
    
    ------------------------------------------------------------------------------
    ------------------------------------------------------------------------------
    ------------------------------------------------------------------------------
    ------------------------------------------------------------------------------
    ---------------------7-2----13-------13-12----12\8----8\7----7--7-\6----------
    --6h7p6--3-6--6h7p6--7-2--0----15-12-------15------11------7----7-\6----------
    
    ------------------------------------------------------------------------------
    ------------------------------------------------------------------------------
    ------------------------------------------------------------------------------
    --------------------------------------------6---------------------------------
    ---13-------13-12-----12\8h9p8-5-7-7/8\7-5--4----13-------13-12----12\8-------
    -0----15-12-------15---------------------------0----15-12-------15------11----
                                                                                 
    
    ------------------------------------------------------------------------------
    ------------------------------------------------------------------------------
    ------------------------------------------------------------------------------
    ------------------------------------------------------------------------------
    --8\7---7--7\6----13-------13-12----12--------------------7-2-----13----------
    ------7----7\6--0----15-12-------15----6h7p6--3-6--6h7p6--7-2---0----15-12----
                                                                                 
    
    ------------------------------------------------------------------------------
    ------------------------------------------------------------------------------
    ------------------------------------------------------------------------------
    -------------------------------------7-------------7-7-------------7-7--------
    -13-12-----12\8h9p8-5-7-7/8\7-5-4----5-------------5-5-------------5-5--------
    -------15------------------------------0-0-0-0-0-0-----0-0-0-0-0-0-----0-0-0--
                                                                                 
    
    ------------------------------------------------------------------------------
    ------------------------------------------------------------------------------
    ------------------------------------------------------------------------------
    -------7-7-----6-6----10-10------------10-10-------------9-9------------10----
    -------5-5-----4-4-----8--8-------------8--8-------------7-7-------------8----
    -0-0-0-----0-0-----0-0------0-0-0-0-0-0------0-0-0-0-0-0-----0-0-0-0-0-0------
                                                                                 
    
    ------------------------------------------------------------------------------
    ------------------------------------------------------------------------------
    ------------------------------------------------------------------------------
    -10-----13-13-----7--7---------8----------------------------------------------
    --8-----11-11-----5--5---------6----13-------13-12----12\8----8\7----7--7\6---
    ----0-0-------0-0-----------------0----15-12-------15------11------7----7\6---
                       etc.                                                       
    
    ------------------------------------------------------------------------------
    ------------------------------------------------------------------------------
    ------------------------------------------------------------------------------
    ------------------------------------------------------------------------------
    ----13-------13-12----12---------------------7-2-----13-------13-12----12\8---
    --0----15-12-------15-----6h7p6--3-6--6h7p6--7-2---0----15-12-------15--------
                                                                                 
    
    ------------------------------------------------------------------------------
    ------------------------------------------------------------------------------
    ------------------------------------------------------------------------------
    ---------------------------------------0---------------7-------------7-7------
    ----8\7----7--7-6-----------------4----0---------------5-------------5-5------
    -11------7----7-6---6/7\6-3-6-7-3---7--0----6-5-0-3/4----0-0-0-0-0-0-----0-0--
                                                                                 
    
    ------------------------------------------------------------------------------
    ------------------------------------------------------------------------------
    ------------------------------------------------------------------------------
    ---------7-7-------------------------13-13-13-13------------------------------
    ---------5-5-------------------------11-11-11-11------------2-1---1---2-1---1-
    -0-0-0-0------------------------------------------2h3p2-3-2-----2---2-----2---
     etc same as earlier except the pause                                           
    
    ------------------------------------------------------------------------------
    ------------------------------------------------------------------------------
    ------------------------------------------------------------------------------
    ------------------------------------------------------------------------------
    ----2-1----------2-1---1---3-2---2---4-3------------2-1---1---2-1---1---2-1---
    --2-----3--2-3-2-----2---2-----3---3------2h3p2-3-2-----2---2-----2---2-------
                                                                                 
    
    ------------------------------------------------------------------------------
    ------------------------------------------------------------------------------
    ------------------------------------------------------------------------------
    ------------------------------------------------------------------------------
    ----------2-1---1----6-5-4-3-2-1-----13-------13-12----12\8----8\7---7--7\6---
    -3--2-3-2-----2---2--6-5-4-3-2-1---0----15-12-------15------11-----7----7\6---
                                                                                 
    
    ------------------------------------------------------------------------------
    ------------------------------------------------------------------------------
    ------------------------------------------------------------------------------
    ------------------------------------------------------------------------------
    ----13-------13-12----12--------------------7-2----13-------13-12----12\8-----
    --0----15-12-------15----6h7p6--3-6--6h7p6--7-2--0----15-12-------15------11--
                                                                                 
    
    ------------------------------------------------------------------------------
    ------------------------------------------------------------------------------
    ------------------------------------------------------------------------------
    ------------------------------------------------------------------------------
    -8\7---7--7\6----13-------13-12----12-----------------5-4---------------------
    -----7----7\6--0----15-12-------15----7h8p7-5-7-7h8p7-5-4---------------------
                                                                                 
    
    ------------------------------------------------------------------------------
    ------------------------------------------------------------------------------
    ------------------------------------------------------------------------------
    -----------8------7----------6-5----------------8------7-------------4-3-1----
    ---10-9-10---10-9------8-6---------9----10-9-10---10-9-------8-6--------------
    -5-------------------5-----5-----6----5--------------------5-----5-1----------
                                                                                 
    
    ------------------------------------------------------------------------------
    ------------------------------------------------------------------------------
    ------------------------------------------------------------------------------
    ------------8------7----------6-5-----------------8------7--------------------
    ----10-9-10---10-9------8-6---------9-----10-9-10---10-9----------------------
    --5-------------------5-----5-----6-----5-------------------7h8p7-5-7-7h8p7---
                                                                                 
    
    ------------------------------------------------------------------------------
    ------------------------------------------------------------------------------
    ------------------------------------------------------------------------------
    ----------------8------7----------6-5---------------8------7------------4-3---
    ---4----10-9-10---10-9------8-6--------9----10-9-10---10-9------8-6-----------
    -5-4--5-------------------5-----5----6----5-------------------5-----5-1-------
                                                                                 
    
    ------------------------------------------------------------------------------
    ------------------------------------------------------------------------------
    ------------------------------------------------------------------------------
    -1------------8------7----------6-5----------------8------7-------------------
    ------10-9-10---10-9------8-6---------9----10-9-10---10-9---------------------
    ----5-------------------5-----5-----6----5-------------------7h8p7-5-7-7h8p7--
                                                                                 
    
    ------------------------------------------------------------------------------
    ------------------------------------------------------------------------------
    -----------------2-1---------------1-----------------1---------------1--------
    ---------------------3-1h2p1---------2-3---------------0-----------------3----
    ---4---0----------------------------------0--------------3-0-----------4------
    -5-4---0-0-0-0-0-------------0-0-0--------0-0-0-0-0--------0-0-0-0-0----------
                                                                                 
    
    ------------------------------------------------------------------------------
    ------------------------------------------------------------------------------
    ------------2-1---1h2p1-------1----------------1-----------------1------------
    ----------------3---------------2-3----------------3-----------------3--------
    --1---------------------------------1------------4----3------------4----------
    --1-1-1-1-1-------------1-1-1-------1-1-1-1-1---------3-3-3-3-3---------------
                                                                            etc   
    
    ------------------------------------------------------------------------------
    ------------------------------------------------------------------------------
    -------------1-------2---2-2---2---2-2----------------------------------------
    -----------------3---2---2-2---2---2-2----3---3-3---6---6--5--5-5-5-5-5-5-----
    --2------------4-----0---0-0---0---0-0----1---1-1---6---6--5--5-5-5-5-5-5-----
    --2-2-2-2-2----------0---0-0---0---0-0----1---1-1---6---6--5--5-5-5-5-5-5-----
                                                                            etc   
    
    ------------------------------------------------------------------------------
    ------------------------------------------------------------------------------
    ------------------------------------------------------------------------------
    -7-------------7-7-------------7-7-------------7-7-----6-6-----3-3------------
    -5-------------5-5-------------5-5-------------5-5-----4-4-----1-1------------
    ---0-0-0-0-0-0-----0-0-0-0-0-0-----0-0-0-0-0-0-----0-0-----0-0-----0-0-0-0-0--
                                                                                 
    
    ------------------------------------------------------------------------------
    ------------------------------------------------------------------------------
    ------------------------------------------------------------------------------
    ---3-3---------------------------------------------7-7------------------------
    ---1-1-------------7-7-------------6-6-----2-2-----5-5------------------------
    -0-----0-0-0-0-0-0-7-7-0-0-0-0-0-0-6-6-0-0-2-2-0-0----------------------------
                                               then it repeats earlier parts     
    
    ------------------------------------------------------------------------------
    ------------------------------------------------------------------------------
    ------------------------------------------------------------------------------
    ------------------------------------------------------------------------------
    ----------------4-0-0---------------------------------------------------------
    --6h7p6-3-6-6-3-----0---------------------------------------------------------
    I'm almost done the last two songs, and the other incomplete ones, I'm pretty busy right now with univ. registration and all so I'll update when I get time. If you're gonna use my tabs on your site or w/e go for it, I couldn't care less, enjoy metalheads.

    Jeff Loomis: He's so good, he doesn't need to be dead to have a tribute.

  4. Music   -   #4
    n00b
    Join Date
    Aug 2006
    Location
    Vancouver
    Posts
    2
    nicee work man. prolly took a long time

  5. Music   -   #5
    cpt_azad's Avatar Colonel
    Join Date
    Aug 2003
    Location
    Surrey, BC
    Posts
    6,741
    Quote Originally Posted by trevor_guitar View Post
    nicee work man. prolly took a long time
    Nope, not really. I got an advance copy of the deluxe edition a few days before it came out, had some time off (back then) and decided to tab it out, got some online help from a friend and we both tabbed it out (he downloaded his copy of the album), it was a fun project...except the damn solos

    you just have to have a good ear and know your way around a guitar, basically replicate the sound you hear without and info on it other then the sound itself.

    Jeff Loomis: He's so good, he doesn't need to be dead to have a tribute.

  6. Music   -   #6
    hey man nice work and i wanted to know if you have the Pathetic Guitar tabs or if you know where i could find it .


    thx

  7. Music   -   #7
    cpt_azad's Avatar Colonel
    Join Date
    Aug 2003
    Location
    Surrey, BC
    Posts
    6,741
    Quote Originally Posted by Metal Madness View Post
    hey man nice work and i wanted to know if you have the Pathetic Guitar tabs or if you know where i could find it .


    thx
    havent started work on pathetic yet, too much stuff going on right now (and im busy with the solo's in the other songs) but im done a couple of the main riffs (almost), ill post as soon as its done. as for if its somewhere on the net havent found any

    Jeff Loomis: He's so good, he doesn't need to be dead to have a tribute.

  8. Music   -   #8
    cpt_azad's Avatar Colonel
    Join Date
    Aug 2003
    Location
    Surrey, BC
    Posts
    6,741
    AGAIN WE RISE
    TRACK: #2
    ALBUM: SACRAMENT
    ARTIST: LAMB OF GOD

    For those that don't like standard D tuning, here's the song in double drop D, the reason it's double drop D is because unless you have freakeshly long fingers to play (8' grip anyone?), all I did was "translate" the standard D to double drop D (I tried normal drop D but no good, unless I went and tabbed the song from ground up which I don't have time to do), took a good 30 min to translate everything, just drop your 1st strring to d that's all you have to do, have fun.

    Code:
    Again we Rise
    Sacrament - Lamb of God
    By: Giffin (my friend)
    Translated to Double drop D: azad
    Tuning: Double Drop D Tuning --> D A D G B d 
    view this in --> Font: Courier New, size=9, make sure word wrap is on
    
    Band:  Lamb of God
    Album: Sacrament
    Song:  Again We Rise
    
    Intro
    
    D |0-0-0-0-0-0-0-0-0-0-0-0-0-0-0-0-0-0-0-0-0-0-0-0-0-0-0-0-0-0-0-0-0-0-0-0-0-0-0-0-0-0-0-0-0-0-0-0-|
    B |3-3-3-3-3-3-3-3-3-3-3-3-3-3-3-3-3-3-3-3-3-3-3-3-2-2-2-2-2-2-2-2-2-2-2-2-2-5-5-5-5-5-6-6-6-6-6-6-|
    G |------------------------------------------------------------------------------------------------|
    D |------------------------------------------------------------------------------------------------|
    A |------------------------------------------------------------------------------------------------|
    D |------------------------------------------------------------------------------------------------|
    
    
    Riff #1
    
    D |----------------------------------------------------------------------------------------|
    B |----------------------------------------------------------------------------------------|
    G |----------------------------------------------------------------------------------------|
    D |----------------------------------------------------------------------------------------|
    A |5h8p5------5h8p5------5h8p5------5h8p5------4h7p4-----4h7p4------6h10p6-----6h10p6------|
    D |------0-0-0------0-0-0------0-0-0------0-0-0-----0-0-0------0-0-0------0-0-0------0-0-0-|
    
    
    Fill
    
    D |----------------------------------------------------------------------------------|
    B |----------------------------------------------------------------------------------|
    G |----------------------------------------------------------------------------------|
    D |-7-5-4-----8-7---6----5-----------------------------------------------------------|
    A |-------6-5----5/6-5-6-------------------------------------------------------------|
    D |0---------------------------------------------------------------------------------|
    
    
    Riff #2 (verse 1)
    
    D |-------------------------------------------------------------------------------------------------------|
    B |-------------------------------------------------------------------------------------------------------|
    G |-------------------------------------------------------------------------------------------------------|
    D |-------------------------------------------------------------------------------------------------------|
    A |-------------12-13---------------12-13---------15-13----------------12-13------------------3---3-------|
    D |0-0-0-0-0-12------0-0-0-0-0-0-12------0-0-0-13--------0-0-0-0-0-0-12-----0-0-0-6p0-6p0-6p0--6-5-6-5----|
    
    D |-------------------------------------------------------------------------------------------------------|
    B |-------------------------------------------------------------------------------------------------------|
    G |-----------------------------------------------------------------------------------------------------8-|
    D |-------------------------------------------------------------------------------4-4-4-4-4-4-4/5-5-5-5-5-|
    A |-------------12-13---------------12-13---------15-13----------------12-13------5-5-5-5-5-5-5/6-6-6-6-6-|
    D |0-0-0-0-0-12------0-0-0-0-0-0-12------0-0-0-13--------0-0-0-0-0-0-12-----0-0-0-------------------------|
    
    
    
    Riff #1 (chorus)
    
    D |----------------------------------------------------------------------------------------|
    B |----------------------------------------------------------------------------------------|
    G |----------------------------------------------------------------------------------------|
    D |----------------------------------------------------------------------------------------|
    A |5h8p5------5h8p5------5h8p5------5h8p5------4h7p4-----4h7p4------6h10p6-----6h10p6------|
    D |------0-0-0------0-0-0------0-0-0------0-0-0-----0-0-0------0-0-0------0-0-0------0-0-0-|
    
    
    Fill
    D |----------------------------------------------------------------------------------|
    B |----------------------------------------------------------------------------------|
    G |----------------------------------------------------------------------------------|
    D |-7-5-4-----8-7---6----5-----------------------------------------------------------|
    A |-------6-5----5/6-5-6-------------------------------------------------------------|
    D |0---------------------------------------------------------------------------------|
    
    
    
    Riff #2 (verse 2)
    
    D |-------------------------------------------------------------------------------------------------------|
    B |-------------------------------------------------------------------------------------------------------|
    G |-------------------------------------------------------------------------------------------------------|
    D |-------------------------------------------------------------------------------------------------------|
    A |-------------12-13---------------12-13---------15-13----------------12-13------------------3---3-------|
    D |0-0-0-0-0-12------0-0-0-0-0-0-12------0-0-0-13--------0-0-0-0-0-0-12-----0-0-0-6p0-6p0-6p0--6-5-6-5----|
    
    D |-------------------------------------------------------------------------------------------------------|
    B |-------------------------------------------------------------------------------------------------------|
    G |-----------------------------------------------------------------------------------------------------8-|
    D |-------------------------------------------------------------------------------4-4-4-4-4-4-4/5-5-5-5-5-|
    A |-------------12-13---------------12-13---------15-13----------------12-13------5-5-5-5-5-5-5/6-6-6-6-6-|
    D |0-0-0-0-0-12------0-0-0-0-0-0-12------0-0-0-13--------0-0-0-0-0-0-12-----0-0-0-------------------------|
    
    
    
    Riff #1 (chorus)
    
    D |----------------------------------------------------------------------------------------|
    B |----------------------------------------------------------------------------------------|
    G |----------------------------------------------------------------------------------------|
    D |----------------------------------------------------------------------------------------|
    A |5h8p5------5h8p5------5h8p5------5h8p5------4h7p4-----4h7p4------6h10p6-----6h10p6------|
    D |------0-0-0------0-0-0------0-0-0------0-0-0-----0-0-0------0-0-0------0-0-0------0-0-0-|
    
    
    
    Riff #3 (Riff #1 variation)
    
    D |---------------------------------------------------------------------------------------------|
    B |---------------------------------------------------------------------------------------------|
    G |---------------------------------------------------------------------------------------------|
    D |---------------------------------------------------------------------------------------------|
    A |------------5h8p5-------------------5h8p5---------------4h7p4-------6h10p6-------------1-1-1-|
    D |0-0-0-0-0-0--------0-0-0-0-0-0-0-0-0--------0-0-0-0-0-0-------0-0-0--------0-0-0-0-0-0-1-1-1-|
    
    
    Intro riff
     
    D |0-0-0-0-0-0-0-0-0-0-0-0-0-0-0-0-0-0-0-0-0-0-0-0-0-0-0-0-0-0-0-0-0-0-0-0-0-0-0-0-0-0-0-0-0-0-0-0-|
    B |3-3-3-3-3-3-3-3-3-3-3-3-3-3-3-3-3-3-3-3-3-3-3-3-2-2-2-2-2-2-2-2-2-2-2-2-2-5-5-5-5-5-6-6-6-6-6-6-|
    G |------------------------------------------------------------------------------------------------|
    D |------------------------------------------------------------------------------------------------|
    A |------------------------------------------------------------------------------------------------|
    D |------------------------------------------------------------------------------------------------|
    
    
    Riff #4
    
    Willie (left)
    
    D |------------------------------------------------------------------------------------------------|
    B |------------------------------------------------------------------------------------------------|
    G |------------------------------------------------------------------------------------------------|
    D |------------------------------------------------------------------------------------------5-5-5-|
    A |------------------------------------------------4-4-4-4-4-4-4-4-4-4-4-4-1-1-1-1-1-1-1-1-1-------|
    D |0-0-0-0-0-0-0-0-0-0-0-0-0-0-0-0-0-0-0-0-0-0-0-0-0-0-0-0-0-0-0-0-0-0-0-0-0-0-0-0-0-0-0-0-0-5-5-5-|
    
    
    Mark (right)
    
    D |----------------------------------------------------------------------------------------------------------|
    B |----------------------------------------------------------------------------------------------------------|
    G |----------------------------------------------------------------------------------------------------------|
    D |------------7---8--------------7---8--7h8p7p5---5------------------7--8------------7---8--7h8p7p5---5-----|
    A |5-5-5-5-5-5---5----5-5-5-5-5-5---5------------8--8--7--4-4-4-4-4-4--4---4-4-4-4-4-4--4------------8--8--7-|
    D |----------------------------------------------------------------------------------------------------------|
    
    
    D |-----------------------------------------------------------------------------------------------------------|
    B |-----------------------------------------------------------------------------------------------------------|
    G |-----------------------------------------------------------------------------------------------------------|
    D |------------7---8--------------7---8--7h8p7p5---5------------------7--8-------7h8p7p5---5-----------5-7-8--|
    A |5-5-5-5-5-5---5----5-5-5-5-5-5---5------------8--8--7--4-4-4-4-4-4--4---4-4-4---------8--8-7-5-7-8---------|
    D |-----------------------------------------------------------------------------------------------------------|
    
    
    Lead (Mark Morton)
    
    Hey I don't know the solo yet so screw off lol
    
    D |----------------------weeeeee-----------------------------------------------------|
    B |--------------diddly-----------wooo-----------------------------------------------|
    G |-----diddly-------------------------weeeoooweoeeeee--------tittly-----------------|
    D |----------------------------------------------------biddly--------bibbly boo------|
    A |----------------------------------------------------------------------------------|
    D |----------------------------------------------------------------------------------|
    
    
    Fill
    
    D |----------------------------------------------------------------------------------|
    B |----------------------------------------------------------------------------------|
    G |----------------------------------------------------------------------------------|
    D |-7-5-4-----8-7---6----5-----------------------------------------------------------|
    A |-------6-5----5/6-5-6-------------------------------------------------------------|
    D |0---------------------------------------------------------------------------------|
    
    
    Riff #2 (verse 3)
    
    D |-------------------------------------------------------------------------------------------------------|
    B |-------------------------------------------------------------------------------------------------------|
    G |-------------------------------------------------------------------------------------------------------|
    D |-------------------------------------------------------------------------------------------------------|
    A |-------------12-13---------------12-13---------15-13----------------12-13------------------3---3-------|
    D |0-0-0-0-0-12------0-0-0-0-0-0-12------0-0-0-13--------0-0-0-0-0-0-12-----0-0-0-6p0-6p0-6p0--6-5-6-5----|
    
    D |-------------------------------------------------------------------------------------------------------|
    B |-------------------------------------------------------------------------------------------------------|
    G |-----------------------------------------------------------------------------------------------------8-|
    D |-------------------------------------------------------------------------------4-4-4-4-4-4-4/5-5-5-5-5-|
    A |-------------12-13---------------12-13---------15-13----------------12-13------5-5-5-5-5-5-5/6-6-6-6-6-|
    D |0-0-0-0-0-12------0-0-0-0-0-0-12------0-0-0-13--------0-0-0-0-0-0-12-----0-0-0-------------------------|
    
    
    D |--------------------------------------------------------------------------------------------|
    B |--------------------------------------------------------------------------------------------|
    G |--------------------------------------------------------------------------------------------|
    D |--------------------------------------------------------------------------------------------|
    A |-----------------------------------------------------------------------------------3---3----|
    D |0-0-0-0-0-------0-0-0-0-0-0-------0-0-0---------0-0-0-0-0-0------0-0-0-6p0-6p0-6p0--6-5-6-5-|
    
    D |-----------------------------------------------------------------------------------------------|
    B |-----------------------------------------------------------------------------------------------|
    G |-----------------------------------------------------------------------------------------------|
    D |-----------------------------------------------------------------------4-4-4-4-4-4-4/5-5-5-5-5-|
    A |-----------------------------------------------------------------------5-5-5-5-5-5-5/6-6-6-6-6-|
    D |0-0-0-0-0-------0-0-0-0-0-0-------0-0-0---------0-0-0-0-0-0------0-0-0-------------------------|
    
    
    Riff #1 (chorus)
    
    D |----------------------------------------------------------------------------------------|
    B |----------------------------------------------------------------------------------------|
    G |----------------------------------------------------------------------------------------|
    D |----------------------------------------------------------------------------------------|
    A |5h8p5------5h8p5------5h8p5------5h8p5------4h7p4-----4h7p4------6h10p6-----6h10p6------|
    D |------0-0-0------0-0-0------0-0-0------0-0-0-----0-0-0------0-0-0------0-0-0------0-0-0-|
    
    
    Riff #3 (Riff #1 variation)
    
    D |---------------------------------------------------------------------------------------------|
    B |---------------------------------------------------------------------------------------------|
    G |---------------------------------------------------------------------------------------------|
    D |---------------------------------------------------------------------------------------------|
    A |------------5h8p5-------------------5h8p5---------------4h7p4-------6h10p6-------------1-1-1-|
    D |0-0-0-0-0-0--------0-0-0-0-0-0-0-0-0--------0-0-0-0-0-0-------0-0-0--------0-0-0-0-0-0-1-1-1-|
    
    Harmony
    
    D |-----------------------------------------------------------------------------------------------|
    B |-----------------------------------------------------------------------------------------------|
    G |-----------------------------------------------------------------------------------------------|
    D |-----------------------------------------------------------------------------------------------|
    A |------------8h12p8-------------------8h12p8-------------7h10p7-------10h13p10------------1-1-1-|
    D |0-0-0-0-0-0---------0-0-0-0-0-0-0-0-0--------0-0-0-0-0-0-------0-0-0---------0-0-0-0-0-0-1-1-1-|
    
    
    Riff #2 (staccato verse)
    
    D |--------------------------------------------------------------------------------------------|
    B |--------------------------------------------------------------------------------------------|
    G |--------------------------------------------------------------------------------------------|
    D |--------------------------------------------------------------------------------------------|
    A |-----------------------------------------------------------------------------------3---3----|
    D |0-0-0-0-0-------0-0-0-0-0-0-------0-0-0---------0-0-0-0-0-0------0-0-0-6p0-6p0-6p0--6-5-6-5-|
    
    D |-----------------------------------------------------------------------------------------------|
    B |-----------------------------------------------------------------------------------------------|
    G |-----------------------------------------------------------------------------------------------|
    D |-----------------------------------------------------------------------4-4-4-4-4-4-4/5-5-5-5-5-|
    A |-----------------------------------------------------------------------5-5-5-5-5-5-5/6-6-6-6-6-|
    D |0-0-0-0-0-------0-0-0-0-0-0-------0-0-0---------0-0-0-0-0-0------0-0-0-------------------------|
    
    
    Lead line
    
    D |---------------------|
    B |--------------------.|
    G |------10-6-9--3---3--|
    D |----7-----------5---.|
    A |5--------------------|
    D |---------------------|
    
    
    End
    
    D |----------------------------------------------------------------------------------|
    B |----------------------------------------------------------------------------------|
    G |----------------------------------------------------------------------------------|
    D |----------------------------------------------------------------------------------|
    A |----------------------------------------------------------------------------------|
    D |0-0-0-0-0-0-----------------------------------------------------------------------|
    Last edited by cpt_azad; 08-29-2006 at 05:45 PM.

    Jeff Loomis: He's so good, he doesn't need to be dead to have a tribute.

  9. Music   -   #9
    cpt_azad's Avatar Colonel
    Join Date
    Aug 2003
    Location
    Surrey, BC
    Posts
    6,741

    Urgent

    Walk With Me In Hell Solo:

    Quote Originally Posted by Notations

    pr= pre bend (bend the string before hitting the note/string)
    ^ = bend
    v = release
    ~ = vibrato
    * = pinch harmonics baby
    \ = if there is no numbers after this that means slide to open note
    / = if there is no numbers after this that means slide to infinity
    (x) = x being a number, play a natural harmonic on the fret specified

    Code:
    
    e|--------------------------------------------------------|
    b|--------------------------------------------------------|
    g|------------------------------5-7-9*^v-7-9-7-5------7*~-|
    d|------(14)--14*-15*^------5-7------------------7/10-----|
    a|-14*~-----------------5-8-------------------------------|
    D|--------------------------------------------------------|
    
    e|----------------------------------------------------|
    b|----------------------------------------------------|
    g|---------7h10p7------7h10p7------7h10p7-------------|
    d|-10-7-10--------10-7--------10-7--------10-7-10/12~-|
    a|----------------------------------------------------|
    D|----------------------------------------------------|
    
    e|-------------------------------------------------------------------|
    b|-------------------------------------------------------------------|
    g|-12^v-10h12p10-9h10p9----9-----------------------------------------|
    d|----------------------12---12-11----12-11--------------------------|
    a|---------------------------------13-------13-12-8-10-8-7-5-4-5h6h7-|
    D|-------------------------------------------------------------------|
    
    e|------------------------------------------------|
    b|------------------------------------------------|
    g|----------9^v--9-7-6------------12*~-12-10-12~\-|
    d|-------5-------------7-8-7-5--------------------|
    a|-5-7-8-----------------------8------------------|
    D|------------------------------------------------|
    
    
    e|---------------------------------------------------------|
    b|----15----151515-13^--^pr13~\--10h13p10----10------------|
    g|-14----14-------------------------------12----13-12-10---|
    d|------------------------------------------------------12-|
    a|---------------------------------------------------------|
    D|---------------------------------------------------------|
    
    
    e|---------------------------------------|
    b|---------------------------------------|
    g|-12*^v~-12^v~-12^v~-10----10-12--13\12-|
    d|-----------------------12--------------|
    a|---------------------------------------|
    D|---------------------------------------|
    
    
    e|------------------------------------------------------------------------------------------------------------------|
    b|------------------------------------------------------------------------------------------------------------------|
    g|-12-10----10-------------------------------------------------10*-------12*br-10-----12-10----10-------------------|
    d|-------12----12-10----10----------------(10)----10*-12-(10)-----12-10*----------12*-------12----12-(10)----10-12~-|
    a|-------------------12----12-10-11-13-12------12---------------------------------------------------------12--------|
    D|------------------------------------------------------------------------------------------------------------------|
    
    
    e|----------------------------------------------------|
    b|----------------------------------------------------|
    g|--10b-----12-10-12-13-12--12-10--------10-----------|
    d|------(12)------------------------(12)-----12-0-----|
    a|------------------------------------------------10~-|
    D|----------------------------------------------------|
    
    
    e|-------------------------------------------------------------------------------------------------------------|
    b|-------------------------------------------------------14-17-15-14-------------15-14-15-17-20-20-17-20*^~~~~-|
    g|-------------------12-15-14-12----------------12-14-15-------------15-14-14-15-------------------------------|
    d|-12-14-15-12-14-15-------------15-14-12-14-15----------------------------------------------------------------|
    a|-------------------------------------------------------------------------------------------------------------|
    D|-------------------------------------------------------------------------------------------------------------|


    All of it is alternate picked, of course, you already knew that
    Last edited by cpt_azad; 09-14-2006 at 08:22 AM.

    Jeff Loomis: He's so good, he doesn't need to be dead to have a tribute.

  10. Music   -   #10
    Quote Originally Posted by cpt_azad View Post
    Walk With Me In Hell Solo:

    Quote Originally Posted by Notations

    pr= pre bend (bend the string before hitting the note/string)
    ^ = bend
    v = release
    ~ = vibrato
    * = pinch harmonics baby
    \ = if there is no numbers after this that means slide to open note
    / = if there is no numbers after this that means slide to infinity
    (x) = x being a number, play a natural harmonic on the fret specified
    thanx

    Code:
    
    e|--------------------------------------------------------|
    b|--------------------------------------------------------|
    g|------------------------------5-7-9*^v-7-9-7-5------7*~-|
    d|------(14)--14*-15*^------5-7------------------7/10-----|
    a|-14*~-----------------5-8-------------------------------|
    D|--------------------------------------------------------|
    
    e|----------------------------------------------------|
    b|----------------------------------------------------|
    g|---------7h10p7------7h10p7------7h10p7-------------|
    d|-10-7-10--------10-7--------10-7--------10-7-10/12~-|
    a|----------------------------------------------------|
    D|----------------------------------------------------|
    
    e|-------------------------------------------------------------------|
    b|-------------------------------------------------------------------|
    g|-12^v-10h12p10-9h10p9----9-----------------------------------------|
    d|----------------------12---12-11----12-11--------------------------|
    a|---------------------------------13-------13-12-8-10-8-7-5-4-5h6h7-|
    D|-------------------------------------------------------------------|
    
    e|------------------------------------------------|
    b|------------------------------------------------|
    g|----------9^v--9-7-6------------12*~-12-10-12~\-|
    d|-------5-------------7-8-7-5--------------------|
    a|-5-7-8-----------------------8------------------|
    D|------------------------------------------------|
    
    
    e|---------------------------------------------------------|
    b|----15----151515-13^--^pr13~\--10h13p10----10------------|
    g|-14----14-------------------------------12----13-12-10---|
    d|------------------------------------------------------12-|
    a|---------------------------------------------------------|
    D|---------------------------------------------------------|
    
    
    e|---------------------------------------|
    b|---------------------------------------|
    g|-12*^v~-12^v~-12^v~-10----10-12--13\12-|
    d|-----------------------12--------------|
    a|---------------------------------------|
    D|---------------------------------------|
    
    
    e|------------------------------------------------------------------------------------------------------------------|
    b|------------------------------------------------------------------------------------------------------------------|
    g|-12-10----10-------------------------------------------------10*-------12*br-10-----12-10----10-------------------|
    d|-------12----12-10----10----------------(10)----10*-12-(10)-----12-10*----------12*-------12----12-(10)----10-12~-|
    a|-------------------12----12-10-11-13-12------12---------------------------------------------------------12--------|
    D|------------------------------------------------------------------------------------------------------------------|
    
    
    e|----------------------------------------------------|
    b|----------------------------------------------------|
    g|--10b-----12-10-12-13-12--12-10--------10-----------|
    d|------(12)------------------------(12)-----12-0-----|
    a|------------------------------------------------10~-|
    D|----------------------------------------------------|
    
    
    e|-------------------------------------------------------------------------------------------------------------|
    b|-------------------------------------------------------14-17-15-14-------------15-14-15-17-20-20-17-20*^~~~~-|
    g|-------------------12-15-14-12----------------12-14-15-------------15-14-14-15-------------------------------|
    d|-12-14-15-12-14-15-------------15-14-12-14-15----------------------------------------------------------------|
    a|-------------------------------------------------------------------------------------------------------------|
    D|-------------------------------------------------------------------------------------------------------------|


    All of it is alternate picked, of course, you already knew that

Bookmarks

Posting Permissions

  • You may not post new threads
  • You may not post replies
  • You may not post attachments
  • You may not edit your posts
  •